ISO-10303-21;
HEADER;
FILE_DESCRIPTION(('STEP AP214'),'1');
FILE_NAME(' ','  ',('TraceParts'),('TraceParts S.A.'),'XStep 1.0',' ',' ');
FILE_SCHEMA(('automotive_design'));
ENDSEC;
DATA;
#1=MECHANICAL_DESIGN_GEOMETRIC_PRESENTATION_REPRESENTATION(' ',(#10,#11,#12,#13,#14,#15,#16,#17,#18,#19,#20,#21,#22,#23,#24,#25,#26,#27,#28,#29,#30,#31,#32,#33,#34,#35,#36,#37,#38,#39,#40,#41,#42,#43,#44),#6);
#2=PRODUCT_DEFINITION_CONTEXT('',#45,'design');
#3=APPLICATION_PROTOCOL_DEFINITION('INTERNATIONAL STANDARD','automotive_design',1994,#45);
#4=PRODUCT_CATEGORY_RELATIONSHIP('NONE','NONE',#46,#47);
#5=SHAPE_DEFINITION_REPRESENTATION(#48,#49);
#6= (GEOMETRIC_REPRESENTATION_CONTEXT(3)GLOBAL_UNCERTAINTY_ASSIGNED_CONTEXT((#52))GLOBAL_UNIT_ASSIGNED_CONTEXT((#54,#55,#56))REPRESENTATION_CONTEXT('NONE','WORKSPACE'));
#10=STYLED_ITEM('',(#58),#59);
#11=STYLED_ITEM('',(#60),#61);
#12=STYLED_ITEM('',(#62),#63);
#13=STYLED_ITEM('',(#64),#65);
#14=STYLED_ITEM('',(#66),#67);
#15=STYLED_ITEM('',(#68),#69);
#16=STYLED_ITEM('',(#70),#71);
#17=STYLED_ITEM('',(#72),#73);
#18=STYLED_ITEM('',(#74),#75);
#19=STYLED_ITEM('',(#76),#77);
#20=STYLED_ITEM('',(#78),#79);
#21=STYLED_ITEM('',(#80),#81);
#22=STYLED_ITEM('',(#82),#83);
#23=STYLED_ITEM('',(#84),#85);
#24=STYLED_ITEM('',(#86),#87);
#25=STYLED_ITEM('',(#88),#89);
#26=STYLED_ITEM('',(#90),#91);
#27=STYLED_ITEM('',(#92),#93);
#28=STYLED_ITEM('',(#94),#95);
#29=STYLED_ITEM('',(#96),#97);
#30=STYLED_ITEM('',(#98),#99);
#31=STYLED_ITEM('',(#100),#101);
#32=STYLED_ITEM('',(#102),#103);
#33=STYLED_ITEM('',(#104),#105);
#34=STYLED_ITEM('',(#106),#107);
#35=STYLED_ITEM('',(#108),#109);
#36=STYLED_ITEM('',(#110),#111);
#37=STYLED_ITEM('',(#112),#113);
#38=STYLED_ITEM('',(#114),#115);
#39=STYLED_ITEM('',(#116),#117);
#40=STYLED_ITEM('',(#118),#119);
#41=STYLED_ITEM('',(#120),#121);
#42=STYLED_ITEM('',(#122),#123);
#43=STYLED_ITEM('',(#124),#125);
#44=STYLED_ITEM('',(#126),#127);
#45=APPLICATION_CONTEXT(' ');
#46=PRODUCT_CATEGORY('part','NONE');
#47=PRODUCT_RELATED_PRODUCT_CATEGORY('detail',' ',(#128));
#48=PRODUCT_DEFINITION_SHAPE('NONE','NONE',#129);
#49=ADVANCED_BREP_SHAPE_REPRESENTATION('1',(#59,#130),#6);
#52=UNCERTAINTY_MEASURE_WITH_UNIT(LENGTH_MEASURE(1.0E-006),#54,'','');
#54= (CONVERSION_BASED_UNIT('MILLIMETRE',#133)LENGTH_UNIT()NAMED_UNIT(#136));
#55= (NAMED_UNIT(#138)PLANE_ANGLE_UNIT()SI_UNIT($,.RADIAN.));
#56= (NAMED_UNIT(#138)SOLID_ANGLE_UNIT()SI_UNIT($,.STERADIAN.));
#58=PRESENTATION_STYLE_ASSIGNMENT((#144));
#59=MANIFOLD_SOLID_BREP('1',#145);
#60=PRESENTATION_STYLE_ASSIGNMENT((#146));
#61=EDGE_CURVE('',#71,#111,#147,.T.);
#62=PRESENTATION_STYLE_ASSIGNMENT((#148));
#63=VERTEX_POINT('',#149);
#64=PRESENTATION_STYLE_ASSIGNMENT((#150));
#65=EDGE_CURVE('',#91,#95,#151,.T.);
#66=PRESENTATION_STYLE_ASSIGNMENT((#152));
#67=ADVANCED_FACE('',(#153),#154,.F.);
#68=PRESENTATION_STYLE_ASSIGNMENT((#155));
#69=EDGE_CURVE('',#63,#87,#156,.T.);
#70=PRESENTATION_STYLE_ASSIGNMENT((#157));
#71=VERTEX_POINT('',#158);
#72=PRESENTATION_STYLE_ASSIGNMENT((#159));
#73=ADVANCED_FACE('',(#160),#161,.F.);
#74=PRESENTATION_STYLE_ASSIGNMENT((#162));
#75=ADVANCED_FACE('',(#163,#164),#165,.T.);
#76=PRESENTATION_STYLE_ASSIGNMENT((#166));
#77=EDGE_CURVE('',#87,#63,#167,.T.);
#78=PRESENTATION_STYLE_ASSIGNMENT((#168));
#79=EDGE_CURVE('',#95,#91,#169,.T.);
#80=PRESENTATION_STYLE_ASSIGNMENT((#170));
#81=ADVANCED_FACE('',(#171),#172,.T.);
#82=PRESENTATION_STYLE_ASSIGNMENT((#173));
#83=EDGE_CURVE('',#111,#105,#174,.T.);
#84=PRESENTATION_STYLE_ASSIGNMENT((#175));
#85=ADVANCED_FACE('',(#176),#177,.F.);
#86=PRESENTATION_STYLE_ASSIGNMENT((#178));
#87=VERTEX_POINT('',#179);
#88=PRESENTATION_STYLE_ASSIGNMENT((#180));
#89=EDGE_CURVE('',#101,#119,#181,.T.);
#90=PRESENTATION_STYLE_ASSIGNMENT((#182));
#91=VERTEX_POINT('',#183);
#92=PRESENTATION_STYLE_ASSIGNMENT((#184));
#93=ADVANCED_FACE('',(#185),#186,.T.);
#94=PRESENTATION_STYLE_ASSIGNMENT((#187));
#95=VERTEX_POINT('',#188);
#96=PRESENTATION_STYLE_ASSIGNMENT((#189));
#97=EDGE_CURVE('',#99,#105,#190,.T.);
#98=PRESENTATION_STYLE_ASSIGNMENT((#191));
#99=VERTEX_POINT('',#192);
#100=PRESENTATION_STYLE_ASSIGNMENT((#193));
#101=VERTEX_POINT('',#194);
#102=PRESENTATION_STYLE_ASSIGNMENT((#195));
#103=EDGE_CURVE('',#99,#71,#196,.T.);
#104=PRESENTATION_STYLE_ASSIGNMENT((#197));
#105=VERTEX_POINT('',#198);
#106=PRESENTATION_STYLE_ASSIGNMENT((#199));
#107=EDGE_CURVE('',#105,#99,#200,.T.);
#108=PRESENTATION_STYLE_ASSIGNMENT((#201));
#109=EDGE_CURVE('',#111,#71,#202,.T.);
#110=PRESENTATION_STYLE_ASSIGNMENT((#203));
#111=VERTEX_POINT('',#204);
#112=PRESENTATION_STYLE_ASSIGNMENT((#205));
#113=EDGE_CURVE('',#105,#119,#206,.T.);
#114=PRESENTATION_STYLE_ASSIGNMENT((#207));
#115=EDGE_CURVE('',#91,#63,#208,.T.);
#116=PRESENTATION_STYLE_ASSIGNMENT((#209));
#117=EDGE_CURVE('',#119,#101,#210,.T.);
#118=PRESENTATION_STYLE_ASSIGNMENT((#211));
#119=VERTEX_POINT('',#212);
#120=PRESENTATION_STYLE_ASSIGNMENT((#213));
#121=ADVANCED_FACE('',(#214),#215,.F.);
#122=PRESENTATION_STYLE_ASSIGNMENT((#216));
#123=EDGE_CURVE('',#87,#95,#217,.T.);
#124=PRESENTATION_STYLE_ASSIGNMENT((#218));
#125=EDGE_CURVE('',#101,#99,#219,.T.);
#126=PRESENTATION_STYLE_ASSIGNMENT((#220));
#127=ADVANCED_FACE('',(#221,#222),#223,.T.);
#128=PRODUCT('1','1','PART-1-DESC',(#224));
#129=PRODUCT_DEFINITION('NONE','NONE',#225,#2);
#130=AXIS2_PLACEMENT_3D('',#226,#227,#228);
#133=LENGTH_MEASURE_WITH_UNIT(LENGTH_MEASURE(1.0),#229);
#136=DIMENSIONAL_EXPONENTS(1.0,0.0,0.0,0.0,0.0,0.0,0.0);
#138=DIMENSIONAL_EXPONENTS(0.0,0.0,0.0,0.0,0.0,0.0,0.0);
#144=SURFACE_STYLE_USAGE(.BOTH.,#230);
#145=CLOSED_SHELL('',(#67,#93,#85,#121,#127,#81,#75,#73));
#146=CURVE_STYLE('',#231,POSITIVE_LENGTH_MEASURE(1.0E-006),#232);
#147=CIRCLE('',#233,17.5);
#148=POINT_STYLE(' ',#234,POSITIVE_LENGTH_MEASURE(1.0E-006),#235);
#149=CARTESIAN_POINT('',(34.0000000000001,2.24307504665072E-014,12.0));
#150=CURVE_STYLE('',#236,POSITIVE_LENGTH_MEASURE(1.0E-006),#237);
#151=CIRCLE('',#238,34.0000000000001);
#152=SURFACE_STYLE_USAGE(.BOTH.,#239);
#153=FACE_OUTER_BOUND('',#240,.T.);
#154=CYLINDRICAL_SURFACE('',#241,17.5);
#155=CURVE_STYLE('',#242,POSITIVE_LENGTH_MEASURE(1.0E-006),#243);
#156=CIRCLE('',#244,34.0000000000001);
#157=POINT_STYLE(' ',#245,POSITIVE_LENGTH_MEASURE(1.0E-006),#246);
#158=CARTESIAN_POINT('',(-17.5,9.79922572636179E-015,-2.8421709430404E-014));
#159=SURFACE_STYLE_USAGE(.BOTH.,#247);
#160=FACE_OUTER_BOUND('',#248,.T.);
#161=CYLINDRICAL_SURFACE('',#249,17.5);
#162=SURFACE_STYLE_USAGE(.BOTH.,#250);
#163=FACE_BOUND('',#251,.T.);
#164=FACE_OUTER_BOUND('',#252,.T.);
#165=PLANE('',#253);
#166=CURVE_STYLE('',#254,POSITIVE_LENGTH_MEASURE(1.0E-006),#255);
#167=CIRCLE('',#256,34.0000000000001);
#168=CURVE_STYLE('',#257,POSITIVE_LENGTH_MEASURE(1.0E-006),#258);
#169=CIRCLE('',#259,34.0000000000001);
#170=SURFACE_STYLE_USAGE(.BOTH.,#260);
#171=FACE_OUTER_BOUND('',#261,.T.);
#172=CYLINDRICAL_SURFACE('',#262,34.0000000000001);
#173=CURVE_STYLE('',#263,POSITIVE_LENGTH_MEASURE(1.0E-006),#264);
#174=LINE('',#265,#266);
#175=SURFACE_STYLE_USAGE(.BOTH.,#267);
#176=FACE_OUTER_BOUND('',#268,.T.);
#177=CONICAL_SURFACE('',#269,21.0,1.0471975511966);
#178=POINT_STYLE(' ',#270,POSITIVE_LENGTH_MEASURE(1.0E-006),#271);
#179=CARTESIAN_POINT('',(-34.0000000000001,8.51338905484829E-015,12.0));
#180=CURVE_STYLE('',#272,POSITIVE_LENGTH_MEASURE(1.0E-006),#273);
#181=CIRCLE('',#274,24.5000000000001);
#182=POINT_STYLE(' ',#275,POSITIVE_LENGTH_MEASURE(1.0E-006),#276);
#183=CARTESIAN_POINT('',(34.0000000000001,2.24307504665072E-014,-2.8421709430404E-014));
#184=SURFACE_STYLE_USAGE(.BOTH.,#277);
#185=FACE_OUTER_BOUND('',#278,.T.);
#186=CYLINDRICAL_SURFACE('',#279,34.0000000000001);
#187=POINT_STYLE(' ',#280,POSITIVE_LENGTH_MEASURE(1.0E-006),#281);
#188=CARTESIAN_POINT('',(-34.0000000000001,7.77862524255487E-015,-2.8421709430404E-014));
#189=CURVE_STYLE('',#282,POSITIVE_LENGTH_MEASURE(1.0E-006),#283);
#190=CIRCLE('',#284,17.5);
#191=POINT_STYLE(' ',#285,POSITIVE_LENGTH_MEASURE(1.0E-006),#286);
#192=CARTESIAN_POINT('',(-17.5,1.02865301558445E-014,7.95854811567261));
#193=POINT_STYLE(' ',#287,POSITIVE_LENGTH_MEASURE(1.0E-006),#288);
#194=CARTESIAN_POINT('',(-24.5000000000001,9.67676509097955E-015,12.0));
#195=CURVE_STYLE('',#289,POSITIVE_LENGTH_MEASURE(1.0E-006),#290);
#196=LINE('',#291,#292);
#197=POINT_STYLE(' ',#293,POSITIVE_LENGTH_MEASURE(1.0E-006),#294);
#198=CARTESIAN_POINT('',(17.5,1.76973373240679E-014,7.95854811567261));
#199=CURVE_STYLE('',#295,POSITIVE_LENGTH_MEASURE(1.0E-006),#296);
#200=CIRCLE('',#297,17.5);
#201=CURVE_STYLE('',#298,POSITIVE_LENGTH_MEASURE(1.0E-006),#299);
#202=CIRCLE('',#300,17.5);
#203=POINT_STYLE(' ',#301,POSITIVE_LENGTH_MEASURE(1.0E-006),#302);
#204=CARTESIAN_POINT('',(17.5,1.76973373240679E-014,-2.8421709430404E-014));
#205=CURVE_STYLE('',#303,POSITIVE_LENGTH_MEASURE(1.0E-006),#304);
#206=LINE('',#305,#306);
#207=CURVE_STYLE('',#307,POSITIVE_LENGTH_MEASURE(1.0E-006),#308);
#208=LINE('',#309,#310);
#209=CURVE_STYLE('',#311,POSITIVE_LENGTH_MEASURE(1.0E-006),#312);
#210=CIRCLE('',#313,24.5000000000001);
#211=POINT_STYLE(' ',#314,POSITIVE_LENGTH_MEASURE(1.0E-006),#315);
#212=CARTESIAN_POINT('',(24.5000000000001,1.97054519905573E-014,12.0));
#213=SURFACE_STYLE_USAGE(.BOTH.,#316);
#214=FACE_OUTER_BOUND('',#317,.T.);
#215=CONICAL_SURFACE('',#318,21.0,1.0471975511966);
#216=CURVE_STYLE('',#319,POSITIVE_LENGTH_MEASURE(1.0E-006),#320);
#217=LINE('',#321,#322);
#218=CURVE_STYLE('',#323,POSITIVE_LENGTH_MEASURE(1.0E-006),#324);
#219=LINE('',#325,#326);
#220=SURFACE_STYLE_USAGE(.BOTH.,#327);
#221=FACE_OUTER_BOUND('',#328,.T.);
#222=FACE_BOUND('',#329,.T.);
#223=PLANE('',#330);
#224=PRODUCT_CONTEXT('',#45,'mechanical');
#225=PRODUCT_DEFINITION_FORMATION_WITH_SPECIFIED_SOURCE(' ','NONE',#128,.NOT_KNOWN.);
#226=CARTESIAN_POINT('',(0.0,0.0,0.0));
#227=DIRECTION('',(0.0,0.0,1.0));
#228=DIRECTION('',(1.0,0.0,0.0));
#229= (NAMED_UNIT(#136)LENGTH_UNIT()SI_UNIT(.MILLI.,.METRE.));
#230=SURFACE_SIDE_STYLE('',(#332));
#231=DRAUGHTING_PRE_DEFINED_CURVE_FONT('continuous');
#232=COLOUR_RGB('',0.509803950786591,0.509803950786591,0.588235318660736);
#233=AXIS2_PLACEMENT_3D('',#333,#334,#335);
#234=PRE_DEFINED_MARKER('');
#235=COLOUR_RGB('',0.509803950786591,0.509803950786591,0.588235318660736);
#236=DRAUGHTING_PRE_DEFINED_CURVE_FONT('continuous');
#237=COLOUR_RGB('',0.509803950786591,0.509803950786591,0.588235318660736);
#238=AXIS2_PLACEMENT_3D('',#336,#337,#338);
#239=SURFACE_SIDE_STYLE('',(#339));
#240=EDGE_LOOP('',(#340,#341,#342,#343));
#241=AXIS2_PLACEMENT_3D('',#344,#345,#346);
#242=DRAUGHTING_PRE_DEFINED_CURVE_FONT('continuous');
#243=COLOUR_RGB('',0.509803950786591,0.509803950786591,0.588235318660736);
#244=AXIS2_PLACEMENT_3D('',#347,#348,#349);
#245=PRE_DEFINED_MARKER('');
#246=COLOUR_RGB('',0.509803950786591,0.509803950786591,0.588235318660736);
#247=SURFACE_SIDE_STYLE('',(#350));
#248=EDGE_LOOP('',(#351,#352,#353,#354));
#249=AXIS2_PLACEMENT_3D('',#355,#356,#357);
#250=SURFACE_SIDE_STYLE('',(#358));
#251=EDGE_LOOP('',(#359,#360));
#252=EDGE_LOOP('',(#361,#362));
#253=AXIS2_PLACEMENT_3D('',#363,#364,#365);
#254=DRAUGHTING_PRE_DEFINED_CURVE_FONT('continuous');
#255=COLOUR_RGB('',0.509803950786591,0.509803950786591,0.588235318660736);
#256=AXIS2_PLACEMENT_3D('',#366,#367,#368);
#257=DRAUGHTING_PRE_DEFINED_CURVE_FONT('continuous');
#258=COLOUR_RGB('',0.509803950786591,0.509803950786591,0.588235318660736);
#259=AXIS2_PLACEMENT_3D('',#369,#370,#371);
#260=SURFACE_SIDE_STYLE('',(#372));
#261=EDGE_LOOP('',(#373,#374,#375,#376));
#262=AXIS2_PLACEMENT_3D('',#377,#378,#379);
#263=DRAUGHTING_PRE_DEFINED_CURVE_FONT('continuous');
#264=COLOUR_RGB('',0.509803950786591,0.509803950786591,0.588235318660736);
#265=CARTESIAN_POINT('',(17.5,1.76973373240679E-014,3.97927405783629));
#266=VECTOR('',#380,1.0);
#267=SURFACE_SIDE_STYLE('',(#381));
#268=EDGE_LOOP('',(#382,#383,#384,#385));
#269=AXIS2_PLACEMENT_3D('',#386,#387,#388);
#270=PRE_DEFINED_MARKER('');
#271=COLOUR_RGB('',0.509803950786591,0.509803950786591,0.588235318660736);
#272=DRAUGHTING_PRE_DEFINED_CURVE_FONT('continuous');
#273=COLOUR_RGB('',0.509803950786591,0.509803950786591,0.588235318660736);
#274=AXIS2_PLACEMENT_3D('',#389,#390,#391);
#275=PRE_DEFINED_MARKER('');
#276=COLOUR_RGB('',0.509803950786591,0.509803950786591,0.588235318660736);
#277=SURFACE_SIDE_STYLE('',(#392));
#278=EDGE_LOOP('',(#393,#394,#395,#396));
#279=AXIS2_PLACEMENT_3D('',#397,#398,#399);
#280=PRE_DEFINED_MARKER('');
#281=COLOUR_RGB('',0.509803950786591,0.509803950786591,0.588235318660736);
#282=DRAUGHTING_PRE_DEFINED_CURVE_FONT('continuous');
#283=COLOUR_RGB('',0.509803950786591,0.509803950786591,0.588235318660736);
#284=AXIS2_PLACEMENT_3D('',#400,#401,#402);
#285=PRE_DEFINED_MARKER('');
#286=COLOUR_RGB('',0.509803950786591,0.509803950786591,0.588235318660736);
#287=PRE_DEFINED_MARKER('');
#288=COLOUR_RGB('',0.509803950786591,0.509803950786591,0.588235318660736);
#289=DRAUGHTING_PRE_DEFINED_CURVE_FONT('continuous');
#290=COLOUR_RGB('',0.509803950786591,0.509803950786591,0.588235318660736);
#291=CARTESIAN_POINT('',(-17.5,7.6567639916209E-015,3.97927405783629));
#292=VECTOR('',#403,1.0);
#293=PRE_DEFINED_MARKER('');
#294=COLOUR_RGB('',0.509803950786591,0.509803950786591,0.588235318660736);
#295=DRAUGHTING_PRE_DEFINED_CURVE_FONT('continuous');
#296=COLOUR_RGB('',0.509803950786591,0.509803950786591,0.588235318660736);
#297=AXIS2_PLACEMENT_3D('',#404,#405,#406);
#298=DRAUGHTING_PRE_DEFINED_CURVE_FONT('continuous');
#299=COLOUR_RGB('',0.509803950786591,0.509803950786591,0.588235318660736);
#300=AXIS2_PLACEMENT_3D('',#407,#408,#409);
#301=PRE_DEFINED_MARKER('');
#302=COLOUR_RGB('',0.509803950786591,0.509803950786591,0.588235318660736);
#303=DRAUGHTING_PRE_DEFINED_CURVE_FONT('continuous');
#304=COLOUR_RGB('',0.509803950786591,0.509803950786591,0.588235318660736);
#305=CARTESIAN_POINT('',(21.0,1.87013946573126E-014,9.97927405783629));
#306=VECTOR('',#410,1.0);
#307=DRAUGHTING_PRE_DEFINED_CURVE_FONT('continuous');
#308=COLOUR_RGB('',0.509803950786591,0.509803950786591,0.588235318660736);
#309=CARTESIAN_POINT('',(34.0000000000001,2.24307504665072E-014,5.99999999999997));
#310=VECTOR('',#411,1.0);
#311=DRAUGHTING_PRE_DEFINED_CURVE_FONT('continuous');
#312=COLOUR_RGB('',0.509803950786591,0.509803950786591,0.588235318660736);
#313=AXIS2_PLACEMENT_3D('',#412,#413,#414);
#314=PRE_DEFINED_MARKER('');
#315=COLOUR_RGB('',0.509803950786591,0.509803950786591,0.588235318660736);
#316=SURFACE_SIDE_STYLE('',(#415));
#317=EDGE_LOOP('',(#416,#417,#418,#419));
#318=AXIS2_PLACEMENT_3D('',#420,#421,#422);
#319=DRAUGHTING_PRE_DEFINED_CURVE_FONT('continuous');
#320=COLOUR_RGB('',0.509803950786591,0.509803950786591,0.588235318660736);
#321=CARTESIAN_POINT('',(-34.0000000000001,2.92335084918159E-015,5.99999999999997));
#322=VECTOR('',#423,1.0);
#323=DRAUGHTING_PRE_DEFINED_CURVE_FONT('continuous');
#324=COLOUR_RGB('',0.509803950786591,0.509803950786591,0.588235318660736);
#325=CARTESIAN_POINT('',(-21.0,6.65270665837619E-015,9.97927405783629));
#326=VECTOR('',#424,1.0);
#327=SURFACE_SIDE_STYLE('',(#425));
#328=EDGE_LOOP('',(#426,#427));
#329=EDGE_LOOP('',(#428,#429));
#330=AXIS2_PLACEMENT_3D('',#430,#431,#432);
#332=SURFACE_STYLE_FILL_AREA(#433);
#333=CARTESIAN_POINT('',(0.0,1.26770506578444E-014,-2.8421709430404E-014));
#334=DIRECTION('',(-0.0,0.0,-1.0));
#335=DIRECTION('',(-1.0,-1.64412888401961E-016,0.0));
#336=CARTESIAN_POINT('',(0.0,1.26770506578444E-014,-2.8421709430404E-014));
#337=DIRECTION('',(-0.0,0.0,-1.0));
#338=DIRECTION('',(-1.0,-1.64412888401961E-016,0.0));
#339=SURFACE_STYLE_FILL_AREA(#434);
#340=ORIENTED_EDGE('',*,*,#103,.F.);
#341=ORIENTED_EDGE('',*,*,#107,.F.);
#342=ORIENTED_EDGE('',*,*,#83,.F.);
#343=ORIENTED_EDGE('',*,*,#109,.T.);
#344=CARTESIAN_POINT('',(0.0,1.26770506578444E-014,3.97927405783629));
#345=DIRECTION('',(0.0,-0.0,1.0));
#346=DIRECTION('',(-1.0,-1.64412888401961E-016,0.0));
#347=CARTESIAN_POINT('',(0.0,1.26770506578444E-014,12.0));
#348=DIRECTION('',(-0.0,0.0,-1.0));
#349=DIRECTION('',(-1.0,-1.64412888401961E-016,0.0));
#350=SURFACE_STYLE_FILL_AREA(#435);
#351=ORIENTED_EDGE('',*,*,#103,.T.);
#352=ORIENTED_EDGE('',*,*,#61,.T.);
#353=ORIENTED_EDGE('',*,*,#83,.T.);
#354=ORIENTED_EDGE('',*,*,#97,.F.);
#355=CARTESIAN_POINT('',(0.0,1.26770506578444E-014,3.97927405783629));
#356=DIRECTION('',(0.0,-0.0,1.0));
#357=DIRECTION('',(-1.0,-1.64412888401961E-016,0.0));
#358=SURFACE_STYLE_FILL_AREA(#436);
#359=ORIENTED_EDGE('',*,*,#61,.F.);
#360=ORIENTED_EDGE('',*,*,#109,.F.);
#361=ORIENTED_EDGE('',*,*,#79,.T.);
#362=ORIENTED_EDGE('',*,*,#65,.T.);
#363=CARTESIAN_POINT('',(-25.75,8.78892548445833E-015,-2.8421709430404E-014));
#364=DIRECTION('',(0.0,0.0,-1.0));
#365=DIRECTION('',(1.0,1.22460635382238E-016,0.0));
#366=CARTESIAN_POINT('',(0.0,1.26770506578444E-014,12.0));
#367=DIRECTION('',(-0.0,0.0,-1.0));
#368=DIRECTION('',(-1.0,-1.64412888401961E-016,0.0));
#369=CARTESIAN_POINT('',(0.0,1.26770506578444E-014,-2.8421709430404E-014));
#370=DIRECTION('',(-0.0,0.0,-1.0));
#371=DIRECTION('',(-1.0,-1.64412888401961E-016,0.0));
#372=SURFACE_STYLE_FILL_AREA(#437);
#373=ORIENTED_EDGE('',*,*,#123,.T.);
#374=ORIENTED_EDGE('',*,*,#65,.F.);
#375=ORIENTED_EDGE('',*,*,#115,.T.);
#376=ORIENTED_EDGE('',*,*,#69,.T.);
#377=CARTESIAN_POINT('',(0.0,1.26770506578444E-014,5.99999999999997));
#378=DIRECTION('',(0.0,-0.0,1.0));
#379=DIRECTION('',(-1.0,-1.64412888401961E-016,0.0));
#380=DIRECTION('',(0.0,0.0,1.0));
#381=SURFACE_STYLE_FILL_AREA(#438);
#382=ORIENTED_EDGE('',*,*,#125,.F.);
#383=ORIENTED_EDGE('',*,*,#117,.F.);
#384=ORIENTED_EDGE('',*,*,#113,.F.);
#385=ORIENTED_EDGE('',*,*,#107,.T.);
#386=CARTESIAN_POINT('',(0.0,1.26770506578444E-014,9.97927405783629));
#387=DIRECTION('',(0.0,-0.0,1.0));
#388=DIRECTION('',(-1.0,-1.64412888401961E-016,0.0));
#389=CARTESIAN_POINT('',(0.0,1.26770506578444E-014,12.0));
#390=DIRECTION('',(-0.0,0.0,-1.0));
#391=DIRECTION('',(-1.0,-1.64412888401961E-016,0.0));
#392=SURFACE_STYLE_FILL_AREA(#439);
#393=ORIENTED_EDGE('',*,*,#123,.F.);
#394=ORIENTED_EDGE('',*,*,#77,.T.);
#395=ORIENTED_EDGE('',*,*,#115,.F.);
#396=ORIENTED_EDGE('',*,*,#79,.F.);
#397=CARTESIAN_POINT('',(0.0,1.26770506578444E-014,5.99999999999997));
#398=DIRECTION('',(0.0,-0.0,1.0));
#399=DIRECTION('',(-1.0,-1.64412888401961E-016,0.0));
#400=CARTESIAN_POINT('',(0.0,1.26770506578444E-014,7.95854811567261));
#401=DIRECTION('',(-0.0,0.0,-1.0));
#402=DIRECTION('',(-1.0,-1.64412888401961E-016,0.0));
#403=DIRECTION('',(0.0,0.0,-1.0));
#404=CARTESIAN_POINT('',(0.0,1.26770506578444E-014,7.95854811567261));
#405=DIRECTION('',(-0.0,0.0,-1.0));
#406=DIRECTION('',(-1.0,-1.64412888401961E-016,0.0));
#407=CARTESIAN_POINT('',(0.0,1.26770506578444E-014,-2.8421709430404E-014));
#408=DIRECTION('',(-0.0,0.0,-1.0));
#409=DIRECTION('',(-1.0,-1.64412888401961E-016,0.0));
#410=DIRECTION('',(0.866025403784442,2.48439759270277E-016,0.499999999999995));
#411=DIRECTION('',(-0.0,-0.0,1.0));
#412=CARTESIAN_POINT('',(0.0,1.26770506578444E-014,12.0));
#413=DIRECTION('',(-0.0,0.0,-1.0));
#414=DIRECTION('',(-1.0,-1.64412888401961E-016,0.0));
#415=SURFACE_STYLE_FILL_AREA(#440);
#416=ORIENTED_EDGE('',*,*,#125,.T.);
#417=ORIENTED_EDGE('',*,*,#97,.T.);
#418=ORIENTED_EDGE('',*,*,#113,.T.);
#419=ORIENTED_EDGE('',*,*,#89,.F.);
#420=CARTESIAN_POINT('',(0.0,1.26770506578444E-014,9.97927405783629));
#421=DIRECTION('',(0.0,-0.0,1.0));
#422=DIRECTION('',(-1.0,-1.64412888401961E-016,0.0));
#423=DIRECTION('',(0.0,0.0,-1.0));
#424=DIRECTION('',(0.866025403784442,2.48439759270277E-016,-0.499999999999995));
#425=SURFACE_STYLE_FILL_AREA(#441);
#426=ORIENTED_EDGE('',*,*,#77,.F.);
#427=ORIENTED_EDGE('',*,*,#69,.F.);
#428=ORIENTED_EDGE('',*,*,#89,.T.);
#429=ORIENTED_EDGE('',*,*,#117,.T.);
#430=CARTESIAN_POINT('',(-29.2500000000001,9.09507707291392E-015,12.0));
#431=DIRECTION('',(0.0,0.0,1.0));
#432=DIRECTION('',(-1.0,-1.22460635382238E-016,0.0));
#433=FILL_AREA_STYLE('',(#442));
#434=FILL_AREA_STYLE('',(#443));
#435=FILL_AREA_STYLE('',(#444));
#436=FILL_AREA_STYLE('',(#445));
#437=FILL_AREA_STYLE('',(#446));
#438=FILL_AREA_STYLE('',(#447));
#439=FILL_AREA_STYLE('',(#448));
#440=FILL_AREA_STYLE('',(#449));
#441=FILL_AREA_STYLE('',(#450));
#442=FILL_AREA_STYLE_COLOUR('',#451);
#443=FILL_AREA_STYLE_COLOUR('',#452);
#444=FILL_AREA_STYLE_COLOUR('',#453);
#445=FILL_AREA_STYLE_COLOUR('',#454);
#446=FILL_AREA_STYLE_COLOUR('',#455);
#447=FILL_AREA_STYLE_COLOUR('',#456);
#448=FILL_AREA_STYLE_COLOUR('',#457);
#449=FILL_AREA_STYLE_COLOUR('',#458);
#450=FILL_AREA_STYLE_COLOUR('',#459);
#451=COLOUR_RGB('',0.509803950786591,0.509803950786591,0.588235318660736);
#452=COLOUR_RGB('',0.509803950786591,0.509803950786591,0.588235318660736);
#453=COLOUR_RGB('',0.509803950786591,0.509803950786591,0.588235318660736);
#454=COLOUR_RGB('',0.509803950786591,0.509803950786591,0.588235318660736);
#455=COLOUR_RGB('',0.509803950786591,0.509803950786591,0.588235318660736);
#456=COLOUR_RGB('',0.509803950786591,0.509803950786591,0.588235318660736);
#457=COLOUR_RGB('',0.509803950786591,0.509803950786591,0.588235318660736);
#458=COLOUR_RGB('',0.509803950786591,0.509803950786591,0.588235318660736);
#459=COLOUR_RGB('',0.509803950786591,0.509803950786591,0.588235318660736);
ENDSEC;
END-ISO-10303-21;
